  0
SECTION
  2
HEADER
  9
$ACADVER
  1
AC1014
  9
$HANDSEED
  5
FFFF
  9
$MEASUREMENT
 70
     1
  0
ENDSEC
  0
SECTION
  2
TABLES
  0
TABLE
  2
VPORT
  5
8
330
0
100
AcDbSymbolTable
 70
     4
  0
VPORT
  5
2E
330
8
100
AcDbSymbolTableRecord
100
AcDbViewportTableRecord
  2
*ACTIVE
 70
     0
 10
0.0
 20
0.0
 11
1.0
 21
1.0
 12
210.0
 22
148.5
 13
0.0
 23
0.0
 14
10.0
 24
10.0
 15
10.0
 25
10.0
 16
0.0
 26
0.0
 36
1.0
 17
0.0
 27
0.0
 37
0.0
 40
341.0
 41
1.24
 42
50.0
 43
0.0
 44
0.0
 50
0.0
 51
0.0
 71
     0
 72
   100
 73
     1
 74
     3
 75
     0
 76
     0
 77
     0
 78
     0
  0
ENDTAB
  0
TABLE
  2
LTYPE
  5
5
330
0
100
AcDbSymbolTable
 70
     1
  0
LTYPE
  5
14
330
5
100
AcDbSymbolTableRecord
100
AcDbLinetypeTableRecord
  2
BYBLOCK
 70
     0
  3

 72
    65
 73
     0
 40
0.0
  0
LTYPE
  5
15
330
5
100
AcDbSymbolTableRecord
100
AcDbLinetypeTableRecord
  2
BYLAYER
 70
     0
  3

 72
    65
 73
     0
 40
0.0
  0
LTYPE
  5
16
330
5
100
AcDbSymbolTableRecord
100
AcDbLinetypeTableRecord
  2
CONTINUOUS
 70
     0
  3
Solid line
 72
    65
 73
     0
 40
0.0
  0
ENDTAB
  0
TABLE
  2
LAYER
  5
2
100
AcDbSymbolTable
 70
2
  0
LAYER
  5
50
100
AcDbSymbolTableRecord
100
AcDbLayerTableRecord
  2
0
 70
0
  6
CONTINUOUS
  0
LAYER
  5
51
100
AcDbSymbolTableRecord
100
AcDbLayerTableRecord
  2
Calque_1
 70
0
  6
CONTINUOUS
  0
ENDTAB
  0
TABLE
  2
STYLE
  5
3
330
0
100
AcDbSymbolTable
 70
     1
  0
STYLE
  5
11
330
3
100
AcDbSymbolTableRecord
100
AcDbTextStyleTableRecord
  2
STANDARD
 70
     0
 40
0.0
 41
1.0
 50
0.0
 71
     0
 42
2.5
  3
txt
  4

  0
ENDTAB
  0
TABLE
  2
VIEW
  5
6
330
0
100
AcDbSymbolTable
 70
     0
  0
ENDTAB
  0
TABLE
  2
UCS
  5
7
330
0
100
AcDbSymbolTable
 70
     0
  0
ENDTAB
  0
TABLE
  2
APPID
  5
9
330
0
100
AcDbSymbolTable
 70
     2
  0
APPID
  5
12
330
9
100
AcDbSymbolTableRecord
100
AcDbRegAppTableRecord
  2
ACAD
 70
     0
  0
ENDTAB
  0
TABLE
  2
DIMSTYLE
  5
A
330
0
100
AcDbSymbolTable
 70
     1
  0
DIMSTYLE
105
27
330
A
100
AcDbSymbolTableRecord
100
AcDbDimStyleTableRecord
  2
ISO-25
 70
     0
  3

  4

  5

  6

  7

 40
1.0
 41
2.5
 42
0.625
 43
3.75
 44
1.25
 45
0.0
 46
0.0
 47
0.0
 48
0.0
140
2.5
141
2.5
142
0.0
143
0.03937007874016
144
1.0
145
0.0
146
1.0
147
0.625
 71
     0
 72
     0
 73
     0
 74
     0
 75
     0
 76
     0
 77
     1
 78
     8
170
     0
171
     3
172
     1
173
     0
174
     0
175
     0
176
     0
177
     0
178
     0
270
     2
271
     2
272
     2
273
     2
274
     3
340
11
275
     0
280
     0
281
     0
282
     0
283
     0
284
     8
285
     0
286
     0
287
     3
288
     0
  0
ENDTAB
  0
TABLE
  2
BLOCK_RECORD
  5
1
330
0
100
AcDbSymbolTable
 70
     1
  0
BLOCK_RECORD
  5
1F
330
1
100
AcDbSymbolTableRecord
100
AcDbBlockTableRecord
  2
*MODEL_SPACE
  0
BLOCK_RECORD
  5
1B
330
1
100
AcDbSymbolTableRecord
100
AcDbBlockTableRecord
  2
*PAPER_SPACE
  0
ENDTAB
  0
ENDSEC
  0
SECTION
  2
BLOCKS
  0
BLOCK
  5
20
330
1F
100
AcDbEntity
  8
0
100
AcDbBlockBegin
  2
*MODEL_SPACE
 70
     0
 10
0.0
 20
0.0
 30
0.0
  3
*MODEL_SPACE
  1

  0
ENDBLK
  5
21
330
1F
100
AcDbEntity
  8
0
100
AcDbBlockEnd
  0
BLOCK
  5
1C
330
1B
100
AcDbEntity
 67
     1
  8
0
100
AcDbBlockBegin
  2
*PAPER_SPACE
  1

  0
ENDBLK
  5
1D
330
1B
100
AcDbEntity
 67
     1
  8
0
100
AcDbBlockEnd
  0
ENDSEC
  0
SECTION
  2
ENTITIES
  0
SPLINE
  5
100
100
AcDbEntity
  8
Calque_1
 62
7
100
AcDbSpline
 70
8
 71
3
 72
8
 73
4
 74
0
 40
0
 40
0
 40
0
 40
0
 40
1
 40
1
 40
1
 40
1
 10
59.263275
 20
59.184689
 30
0.0
 10
51.817281
 20
55.551951
 30
0.0
 10
49.636336
 20
54.592861
 30
0.0
 10
46.364808
 20
53.109422
 30
0.0
  0
LWPOLYLINE
  5
101
100
AcDbEntity
  8
Calque_1
 62
7
100
AcDbPolyline
 90
2
 70
0
 10
51.447195
 20
72.487139
 30
0.0
 10
59.263275
 20
59.184689
 30
0.0
  0
SPLINE
  5
102
100
AcDbEntity
  8
Calque_1
 62
7
100
AcDbSpline
 70
8
 71
3
 72
8
 73
4
 74
0
 40
0
 40
0
 40
0
 40
0
 40
1
 40
1
 40
1
 40
1
 10
9.000651
 20
33.124936
 30
0.0
 10
17.662717
 20
52.312570
 30
0.0
 10
17.039331
 20
50.432070
 30
0.0
 10
28.707958
 20
74.977764
 30
0.0
  0
LWPOLYLINE
  5
103
100
AcDbEntity
  8
Calque_1
 62
7
100
AcDbPolyline
 90
2
 70
0
 10
46.588278
 20
15.251295
 30
0.0
 10
17.195778
 20
18.892785
 30
0.0
  0
SPLINE
  5
104
100
AcDbEntity
  8
Calque_1
 62
7
100
AcDbSpline
 70
8
 71
3
 72
8
 73
4
 74
0
 40
0
 40
0
 40
0
 40
0
 40
1
 40
1
 40
1
 40
1
 10
8.846180
 20
32.970872
 30
0.0
 10
7.500964
 20
29.935824
 30
0.0
 10
7.199720
 20
25.648026
 30
0.0
 10
10.144322
 20
22.160291
 30
0.0
  0
SPLINE
  5
105
100
AcDbEntity
  8
Calque_1
 62
7
100
AcDbSpline
 70
8
 71
3
 72
8
 73
4
 74
0
 40
0
 40
0
 40
0
 40
0
 40
1
 40
1
 40
1
 40
1
 10
10.144322
 20
22.160291
 30
0.0
 10
11.235438
 20
20.867918
 30
0.0
 10
12.963446
 20
19.363103
 30
0.0
 10
17.648941
 20
18.783157
 30
0.0
  0
LWPOLYLINE
  5
106
100
AcDbEntity
  8
Calque_1
 62
7
100
AcDbPolyline
 90
2
 70
0
 10
28.707958
 20
74.977764
 30
0.0
 10
51.688193
 20
72.476359
 30
0.0
  0
SPLINE
  5
107
100
AcDbEntity
  8
Calque_1
 62
7
100
AcDbSpline
 70
8
 71
3
 72
8
 73
4
 74
0
 40
0
 40
0
 40
0
 40
0
 40
1
 40
1
 40
1
 40
1
 10
240.019136
 20
40.556103
 30
0.0
 10
242.164227
 20
40.411389
 30
0.0
 10
244.363184
 20
40.383153
 30
0.0
 10
245.503467
 20
37.662504
 30
0.0
  0
LWPOLYLINE
  5
108
100
AcDbEntity
  8
Calque_1
 62
7
100
AcDbPolyline
 90
2
 70
0
 10
158.429558
 20
45.325138
 30
0.0
 10
240.019136
 20
40.556103
 30
0.0
  0
SPLINE
  5
109
100
AcDbEntity
  8
Calque_1
 62
7
100
AcDbSpline
 70
8
 71
3
 72
8
 73
4
 74
0
 40
0
 40
0
 40
0
 40
0
 40
1
 40
1
 40
1
 40
1
 10
60.765936
 20
6.965487
 30
0.0
 10
58.383858
 20
5.982531
 30
0.0
 10
56.484409
 20
5.977226
 30
0.0
 10
54.729486
 20
7.039258
 30
0.0
  0
SPLINE
  5
10a
100
AcDbEntity
  8
Calque_1
 62
7
100
AcDbSpline
 70
8
 71
3
 72
8
 73
4
 74
0
 40
0
 40
0
 40
0
 40
0
 40
1
 40
1
 40
1
 40
1
 10
54.729486
 20
7.039258
 30
0.0
 10
53.693449
 20
7.364661
 30
0.0
 10
52.756416
 20
8.093382
 30
0.0
 10
51.720382
 20
9.473443
 30
0.0
  0
LWPOLYLINE
  5
10b
100
AcDbEntity
  8
Calque_1
 62
7
100
AcDbPolyline
 90
9
 70
0
 10
245.672388
 20
17.369136
 30
0.0
 10
240.332615
 20
11.835503
 30
0.0
 10
218.973522
 20
3.656290
 30
0.0
 10
190.708320
 20
3.828486
 30
0.0
 10
190.708320
 20
3.828486
 30
0.0
 10
72.361388
 20
13.061048
 30
0.0
 10
66.732983
 20
10.287545
 30
0.0
 10
63.000718
 20
8.263803
 30
0.0
 10
60.765936
 20
6.965487
 30
0.0
  0
LWPOLYLINE
  5
10c
100
AcDbEntity
  8
Calque_1
 62
7
100
AcDbPolyline
 90
4
 70
0
 10
51.720382
 20
9.473443
 30
0.0
 10
50.296001
 20
11.820062
 30
0.0
 10
48.820173
 20
13.821603
 30
0.0
 10
46.728954
 20
15.239270
 30
0.0
  0
SPLINE
  5
10d
100
AcDbEntity
  8
Calque_1
 62
7
100
AcDbSpline
 70
8
 71
3
 72
8
 73
4
 74
0
 40
0
 40
0
 40
0
 40
0
 40
1
 40
1
 40
1
 40
1
 10
65.942715
 20
48.010429
 30
0.0
 10
67.718382
 20
45.370440
 30
0.0
 10
68.191115
 20
44.701785
 30
0.0
 10
70.900020
 20
45.150326
 30
0.0
  0
LWPOLYLINE
  5
10e
100
AcDbEntity
  8
Calque_1
 62
7
100
AcDbPolyline
 90
4
 70
0
 10
46.527580
 20
52.497697
 30
0.0
 10
46.282565
 20
52.375936
 30
0.0
 10
59.516301
 20
58.707432
 30
0.0
 10
65.942715
 20
48.010429
 30
0.0
  0
SPLINE
  5
10f
100
AcDbEntity
  8
Calque_1
 62
7
100
AcDbSpline
 70
8
 71
3
 72
8
 73
4
 74
0
 40
0
 40
0
 40
0
 40
0
 40
1
 40
1
 40
1
 40
1
 10
132.363879
 20
58.037773
 30
0.0
 10
140.209974
 20
59.214015
 30
0.0
 10
148.206304
 20
57.897302
 30
0.0
 10
158.391659
 20
45.313896
 30
0.0
  0
LWPOLYLINE
  5
110
100
AcDbEntity
  8
Calque_1
 62
7
100
AcDbPolyline
 90
4
 70
0
 10
70.900020
 20
45.150326
 30
0.0
 10
129.058088
 20
57.372191
 30
0.0
 10
132.313534
 20
58.007315
 30
0.0
 10
132.363879
 20
58.037773
 30
0.0
  0
LWPOLYLINE
  5
111
100
AcDbEntity
  8
Calque_1
 62
7
100
AcDbPolyline
 90
3
 70
0
 10
245.539067
 20
37.705554
 30
0.0
 10
245.574664
 20
18.419826
 30
0.0
 10
245.625009
 20
17.445749
 30
0.0
  0
SPLINE
  5
112
100
AcDbEntity
  8
Calque_1
 62
7
100
AcDbSpline
 70
8
 71
3
 72
8
 73
4
 74
0
 40
0
 40
0
 40
0
 40
0
 40
1
 40
1
 40
1
 40
1
 10
233.570613
 20
27.020623
 30
0.0
 10
228.966990
 20
20.421277
 30
0.0
 10
228.249197
 20
21.496343
 30
0.0
 10
224.172611
 20
27.063671
 30
0.0
  0
LWPOLYLINE
  5
113
100
AcDbEntity
  8
Calque_1
 62
7
100
AcDbPolyline
 90
9
 70
0
 10
245.513894
 20
27.042134
 30
0.0
 10
243.004200
 20
27.042134
 30
0.0
 10
243.022006
 20
27.924628
 30
0.0
 10
243.039813
 20
29.022365
 30
0.0
 10
240.405523
 20
29.043903
 30
0.0
 10
240.334326
 20
27.020623
 30
0.0
 10
240.334326
 20
27.020623
 30
0.0
 10
233.570613
 20
27.020623
 30
0.0
 10
233.570613
 20
27.020623
 30
0.0
  0
LWPOLYLINE
  5
114
100
AcDbEntity
  8
Calque_1
 62
7
100
AcDbPolyline
 90
1
 70
1
 10
224.172611
 20
27.063671
 30
0.0
  0
LWPOLYLINE
  5
115
100
AcDbEntity
  8
Calque_1
 62
7
100
AcDbPolyline
 90
5
 70
0
 10
240.359486
 20
27.955068
 30
0.0
 10
240.377292
 20
29.031279
 30
0.0
 10
233.631378
 20
29.009769
 30
0.0
 10
233.613571
 20
27.051063
 30
0.0
 10
233.613571
 20
27.051063
 30
0.0
  0
SPLINE
  5
116
100
AcDbEntity
  8
Calque_1
 62
7
100
AcDbSpline
 70
8
 71
3
 72
8
 73
4
 74
0
 40
0
 40
0
 40
0
 40
0
 40
1
 40
1
 40
1
 40
1
 10
158.268760
 20
27.047846
 30
0.0
 10
153.506368
 20
21.801444
 30
0.0
 10
153.725785
 20
19.989734
 30
0.0
 10
148.854462
 20
27.047846
 30
0.0
  0
LWPOLYLINE
  5
117
100
AcDbEntity
  8
Calque_1
 62
5
100
AcDbPolyline
 90
4
 70
1
 10
224.230337
 20
29.009430
 30
0.0
 10
158.308014
 20
29.009430
 30
0.0
 10
158.308014
 20
27.034432
 30
0.0
 10
224.230337
 20
27.034432
 30
0.0
  0
SPLINE
  5
118
100
AcDbEntity
  8
Calque_1
 62
7
100
AcDbSpline
 70
8
 71
3
 72
8
 73
4
 74
0
 40
0
 40
0
 40
0
 40
0
 40
1
 40
1
 40
1
 40
1
 10
136.437322
 20
29.004916
 30
0.0
 10
133.844617
 20
29.004916
 30
0.0
 10
133.844617
 20
29.004916
 30
0.0
 10
133.844617
 20
29.004916
 30
0.0
  0
LWPOLYLINE
  5
119
100
AcDbEntity
  8
Calque_1
 62
5
100
AcDbPolyline
 90
4
 70
1
 10
148.804127
 20
28.996005
 30
0.0
 10
136.192994
 20
28.996005
 30
0.0
 10
136.192994
 20
26.986974
 30
0.0
 10
148.804127
 20
26.986974
 30
0.0
  0
SPLINE
  5
11a
100
AcDbEntity
  8
Calque_1
 62
7
100
AcDbSpline
 70
8
 71
3
 72
8
 73
4
 74
0
 40
0
 40
0
 40
0
 40
0
 40
1
 40
1
 40
1
 40
1
 10
120.838095
 20
27.078289
 30
0.0
 10
115.940726
 20
20.421354
 30
0.0
 10
115.149516
 20
21.127069
 30
0.0
 10
111.197244
 20
27.108716
 30
0.0
  0
LWPOLYLINE
  5
11b
100
AcDbEntity
  8
Calque_1
 62
5
100
AcDbPolyline
 90
4
 70
1
 10
133.801644
 20
28.996005
 30
0.0
 10
120.812926
 20
28.996005
 30
0.0
 10
120.812926
 20
26.926094
 30
0.0
 10
133.801644
 20
26.926094
 30
0.0
  0
SPLINE
  5
11c
100
AcDbEntity
  8
Calque_1
 62
7
100
AcDbSpline
 70
8
 71
3
 72
8
 73
4
 74
0
 40
0
 40
0
 40
0
 40
0
 40
1
 40
1
 40
1
 40
1
 10
98.535760
 20
29.004916
 30
0.0
 10
95.817195
 20
29.004916
 30
0.0
 10
95.817195
 20
29.004916
 30
0.0
 10
95.817195
 20
29.004916
 30
0.0
  0
LWPOLYLINE
  5
11d
100
AcDbEntity
  8
Calque_1
 62
5
100
AcDbPolyline
 90
4
 70
1
 10
111.197258
 20
28.996005
 30
0.0
 10
98.510602
 20
28.996005
 30
0.0
 10
98.510602
 20
27.108732
 30
0.0
 10
111.197258
 20
27.108732
 30
0.0
  0
LWPOLYLINE
  5
11e
100
AcDbEntity
  8
Calque_1
 62
7
100
AcDbPolyline
 90
1
 70
1
 10
95.817195
 20
29.004916
 30
0.0
  0
SPLINE
  5
11f
100
AcDbEntity
  8
Calque_1
 62
7
100
AcDbSpline
 70
8
 71
3
 72
8
 73
4
 74
0
 40
0
 40
0
 40
0
 40
0
 40
1
 40
1
 40
1
 40
1
 10
83.407425
 20
27.078289
 30
0.0
 10
79.212728
 20
20.851056
 30
0.0
 10
78.607354
 20
20.815932
 30
0.0
 10
74.043471
 20
27.078289
 30
0.0
  0
LWPOLYLINE
  5
120
100
AcDbEntity
  8
Calque_1
 62
5
100
AcDbPolyline
 90
4
 70
1
 10
95.842373
 20
29.026445
 30
0.0
 10
83.432610
 20
29.026445
 30
0.0
 10
83.432610
 20
27.078292
 30
0.0
 10
95.842373
 20
27.078292
 30
0.0
  0
LWPOLYLINE
  5
121
100
AcDbEntity
  8
Calque_1
 62
5
100
AcDbPolyline
 90
4
 70
1
 10
74.068638
 20
28.965570
 30
0.0
 10
68.656673
 20
28.965570
 30
0.0
 10
68.656673
 20
27.047857
 30
0.0
 10
74.068638
 20
27.047857
 30
0.0
  0
LWPOLYLINE
  5
122
100
AcDbEntity
  8
Calque_1
 62
7
100
AcDbPolyline
 90
3
 70
0
 10
66.013663
 20
27.078273
 30
0.0
 10
60.601614
 20
27.047849
 30
0.0
 10
60.601614
 20
27.047849
 30
0.0
  0
LWPOLYLINE
  5
123
100
AcDbEntity
  8
Calque_1
 62
7
100
AcDbPolyline
 90
2
 70
0
 10
66.000434
 20
28.969266
 30
0.0
 10
60.571875
 20
28.999659
 30
0.0
  0
LWPOLYLINE
  5
124
100
AcDbEntity
  8
Calque_1
 62
7
100
AcDbPolyline
 90
5
 70
0
 10
60.626826
 20
28.935119
 30
0.0
 10
56.548978
 20
37.732253
 30
0.0
 10
56.548978
 20
37.732253
 30
0.0
 10
56.548978
 20
37.732253
 30
0.0
 10
56.548978
 20
37.732253
 30
0.0
  0
SPLINE
  5
125
100
AcDbEntity
  8
Calque_1
 62
7
100
AcDbSpline
 70
8
 71
3
 72
8
 73
4
 74
0
 40
0
 40
0
 40
0
 40
0
 40
1
 40
1
 40
1
 40
1
 10
56.523800
 20
37.671372
 30
0.0
 10
51.058601
 20
34.306999
 30
0.0
 10
49.138787
 20
30.590765
 30
0.0
 10
49.310838
 20
27.797466
 30
0.0
  0
SPLINE
  5
126
100
AcDbEntity
  8
Calque_1
 62
7
100
AcDbSpline
 70
8
 71
3
 72
8
 73
4
 74
0
 40
0
 40
0
 40
0
 40
0
 40
1
 40
1
 40
1
 40
1
 10
49.310838
 20
27.797466
 30
0.0
 10
49.531606
 20
24.213233
 30
0.0
 10
52.888078
 20
20.896821
 30
0.0
 10
56.523800
 20
18.281166
 30
0.0
  0
LWPOLYLINE
  5
127
100
AcDbEntity
  8
Calque_1
 62
7
100
AcDbPolyline
 90
2
 70
0
 10
60.601656
 20
27.017408
 30
0.0
 10
56.548978
 20
18.311601
 30
0.0
  0
LWPOLYLINE
  5
128
100
AcDbEntity
  8
Calque_1
 62
7
100
AcDbPolyline
 90
1
 70
1
 10
56.523800
 20
18.281166
 30
0.0
  0
LWPOLYLINE
  5
129
100
AcDbEntity
  8
Calque_1
 62
7
100
AcDbPolyline
 90
5
 70
0
 10
68.650165
 20
28.977479
 30
0.0
 10
66.015875
 20
28.988247
 30
0.0
 10
66.015875
 20
28.988247
 30
0.0
 10
65.998095
 20
27.104877
 30
0.0
 10
65.998095
 20
27.104877
 30
0.0
  0
LWPOLYLINE
  5
12a
100
AcDbEntity
  8
Calque_1
 62
7
100
AcDbPolyline
 90
1
 70
1
 10
130.681434
 20
-8.910098
 30
0.0
  0
SPLINE
  5
12b
100
AcDbEntity
  8
Calque_1
 62
7
100
AcDbSpline
 70
8
 71
3
 72
8
 73
4
 74
0
 40
0
 40
0
 40
0
 40
0
 40
1
 40
1
 40
1
 40
1
 10
118.666030
 20
63.625774
 30
0.0
 10
118.043349
 20
60.658390
 30
0.0
 10
116.448558
 20
58.878040
 30
0.0
 10
114.262493
 20
57.819689
 30
0.0
  0
SPLINE
  5
12c
100
AcDbEntity
  8
Calque_1
 62
7
100
AcDbSpline
 70
8
 71
3
 72
8
 73
4
 74
0
 40
0
 40
0
 40
0
 40
0
 40
1
 40
1
 40
1
 40
1
 10
114.262493
 20
57.819689
 30
0.0
 10
111.690553
 20
56.574519
 30
0.0
 10
108.300179
 20
56.328735
 30
0.0
 10
104.711574
 20
56.325008
 30
0.0
  0
LWPOLYLINE
  5
12d
100
AcDbEntity
  8
Calque_1
 62
7
100
AcDbPolyline
 90
3
 70
0
 10
84.206852
 20
57.095246
 30
0.0
 10
85.037917
 20
72.318915
 30
0.0
 10
84.186754
 20
87.580095
 30
0.0
  0
SPLINE
  5
12e
100
AcDbEntity
  8
Calque_1
 62
7
100
AcDbSpline
 70
8
 71
3
 72
8
 73
4
 74
0
 40
0
 40
0
 40
0
 40
0
 40
1
 40
1
 40
1
 40
1
 10
118.816618
 20
81.005960
 30
0.0
 10
118.860796
 20
83.959596
 30
0.0
 10
117.538629
 20
85.836825
 30
0.0
 10
115.259693
 20
86.960310
 30
0.0
  0
SPLINE
  5
12f
100
AcDbEntity
  8
Calque_1
 62
7
100
AcDbSpline
 70
8
 71
3
 72
8
 73
4
 74
0
 40
0
 40
0
 40
0
 40
0
 40
1
 40
1
 40
1
 40
1
 10
115.259693
 20
86.960310
 30
0.0
 10
112.752998
 20
88.196076
 30
0.0
 10
109.088736
 20
88.519912
 30
0.0
 10
104.811965
 20
88.361211
 30
0.0
  0
LWPOLYLINE
  5
130
100
AcDbEntity
  8
Calque_1
 62
7
100
AcDbPolyline
 90
3
 70
0
 10
104.711574
 20
56.325008
 30
0.0
 10
104.612573
 20
56.374509
 30
0.0
 10
84.226240
 20
57.042839
 30
0.0
  0
LWPOLYLINE
  5
131
100
AcDbEntity
  8
Calque_1
 62
7
100
AcDbPolyline
 90
1
 70
1
 10
104.811965
 20
88.361211
 30
0.0
  0
LWPOLYLINE
  5
132
100
AcDbEntity
  8
Calque_1
 62
7
100
AcDbPolyline
 90
9
 70
0
 10
118.666030
 20
63.571291
 30
0.0
 10
118.766422
 20
71.444129
 30
0.0
 10
113.420560
 20
71.444129
 30
0.0
 10
113.420560
 20
71.444129
 30
0.0
 10
113.420560
 20
73.214840
 30
0.0
 10
113.420560
 20
73.214840
 30
0.0
 10
118.766422
 20
73.160359
 30
0.0
 10
118.766422
 20
73.160359
 30
0.0
 10
118.816618
 20
81.060444
 30
0.0
  0
LWPOLYLINE
  5
133
100
AcDbEntity
  8
Calque_1
 62
5
100
AcDbPolyline
 90
4
 70
1
 10
105.414315
 20
71.444132
 30
0.0
 10
95.877096
 20
71.444132
 30
0.0
 10
95.877096
 20
73.242082
 30
0.0
 10
105.414315
 20
73.242082
 30
0.0
  0
SPLINE
  5
134
100
AcDbEntity
  8
Calque_1
 62
7
100
AcDbSpline
 70
8
 71
3
 72
8
 73
4
 74
0
 40
0
 40
0
 40
0
 40
0
 40
1
 40
1
 40
1
 40
1
 10
118.666030
 20
63.625774
 30
0.0
 10
118.043349
 20
60.658390
 30
0.0
 10
116.448558
 20
58.878040
 30
0.0
 10
114.262493
 20
57.819689
 30
0.0
  0
SPLINE
  5
135
100
AcDbEntity
  8
Calque_1
 62
7
100
AcDbSpline
 70
8
 71
3
 72
8
 73
4
 74
0
 40
0
 40
0
 40
0
 40
0
 40
1
 40
1
 40
1
 40
1
 10
114.262493
 20
57.819689
 30
0.0
 10
111.690553
 20
56.574519
 30
0.0
 10
108.300179
 20
56.328735
 30
0.0
 10
104.711574
 20
56.325008
 30
0.0
  0
LWPOLYLINE
  5
136
100
AcDbEntity
  8
Calque_1
 62
7
100
AcDbPolyline
 90
1
 70
1
 10
84.731258
 20
87.481093
 30
0.0
  0
SPLINE
  5
137
100
AcDbEntity
  8
Calque_1
 62
7
100
AcDbSpline
 70
8
 71
3
 72
8
 73
4
 74
0
 40
0
 40
0
 40
0
 40
0
 40
1
 40
1
 40
1
 40
1
 10
118.816618
 20
81.005960
 30
0.0
 10
118.860796
 20
83.959596
 30
0.0
 10
117.538629
 20
85.836825
 30
0.0
 10
115.259693
 20
86.960310
 30
0.0
  0
SPLINE
  5
138
100
AcDbEntity
  8
Calque_1
 62
7
100
AcDbSpline
 70
8
 71
3
 72
8
 73
4
 74
0
 40
0
 40
0
 40
0
 40
0
 40
1
 40
1
 40
1
 40
1
 10
115.259693
 20
86.960310
 30
0.0
 10
112.752998
 20
88.196076
 30
0.0
 10
109.088736
 20
88.519912
 30
0.0
 10
104.811965
 20
88.361211
 30
0.0
  0
LWPOLYLINE
  5
139
100
AcDbEntity
  8
Calque_1
 62
7
100
AcDbPolyline
 90
1
 70
1
 10
104.711574
 20
56.325008
 30
0.0
  0
SPLINE
  5
13a
100
AcDbEntity
  8
Calque_1
 62
7
100
AcDbSpline
 70
8
 71
3
 72
8
 73
4
 74
0
 40
0
 40
0
 40
0
 40
0
 40
1
 40
1
 40
1
 40
1
 10
104.811965
 20
88.361211
 30
0.0
 10
95.112694
 20
87.909642
 30
0.0
 10
95.095000
 20
87.875400
 30
0.0
 10
84.219685
 20
87.531529
 30
0.0
  0
LWPOLYLINE
  5
13b
100
AcDbEntity
  8
Calque_1
 62
7
100
AcDbPolyline
 90
1
 70
1
 10
104.811965
 20
88.361211
 30
0.0
  0
LWPOLYLINE
  5
13c
100
AcDbEntity
  8
Calque_1
 62
7
100
AcDbPolyline
 90
9
 70
0
 10
118.666030
 20
63.571291
 30
0.0
 10
118.766422
 20
71.444129
 30
0.0
 10
113.420560
 20
71.444129
 30
0.0
 10
113.420560
 20
71.444129
 30
0.0
 10
113.420560
 20
73.214840
 30
0.0
 10
113.420560
 20
73.214840
 30
0.0
 10
118.766422
 20
73.160359
 30
0.0
 10
118.766422
 20
73.160359
 30
0.0
 10
118.816618
 20
81.060444
 30
0.0
  0
LWPOLYLINE
  5
13d
100
AcDbEntity
  8
Calque_1
 62
5
100
AcDbPolyline
 90
4
 70
1
 10
105.414315
 20
71.444132
 30
0.0
 10
95.877096
 20
71.444132
 30
0.0
 10
95.877096
 20
73.242082
 30
0.0
 10
105.414315
 20
73.242082
 30
0.0
  0
SPLINE
  5
13e
100
AcDbEntity
  8
Calque_1
 62
7
100
AcDbSpline
 70
8
 71
3
 72
8
 73
4
 74
0
 40
0
 40
0
 40
0
 40
0
 40
1
 40
1
 40
1
 40
1
 10
242.883156
 20
53.114324
 30
0.0
 10
243.327296
 20
53.091173
 30
0.0
 10
243.955647
 20
53.083410
 30
0.0
 10
244.623206
 20
53.077748
 30
0.0
  0
LWPOLYLINE
  5
13f
100
AcDbEntity
  8
Calque_1
 62
7
100
AcDbPolyline
 90
8
 70
0
 10
162.783793
 20
67.666388
 30
0.0
 10
244.849589
 20
72.931142
 30
0.0
 10
244.894481
 20
72.954425
 30
0.0
 10
243.512070
 20
65.942938
 30
0.0
 10
244.547615
 20
65.951642
 30
0.0
 10
244.499461
 20
63.485506
 30
0.0
 10
242.946081
 20
63.505747
 30
0.0
 10
242.883156
 20
53.114324
 30
0.0
  0
LWPOLYLINE
  5
140
100
AcDbEntity
  8
Calque_1
 62
7
100
AcDbPolyline
 90
10
 70
0
 10
244.623206
 20
53.077748
 30
0.0
 10
244.541257
 20
50.647756
 30
0.0
 10
243.538962
 20
50.654688
 30
0.0
 10
244.914801
 20
43.894917
 30
0.0
 10
162.770460
 20
49.140544
 30
0.0
 10
162.304635
 20
54.365663
 30
0.0
 10
164.024096
 20
54.356323
 30
0.0
 10
164.051525
 20
62.363940
 30
0.0
 10
162.272266
 20
62.373862
 30
0.0
 10
162.783793
 20
67.666388
 30
0.0
  0
LWPOLYLINE
  5
141
100
AcDbEntity
  8
Calque_1
 62
7
100
AcDbPolyline
 90
4
 70
1
 10
206.393766
 20
55.046406
 30
0.0
 10
208.243857
 20
55.055589
 30
0.0
 10
208.236039
 20
56.630669
 30
0.0
 10
206.385948
 20
56.621486
 30
0.0
  0
LWPOLYLINE
  5
142
100
AcDbEntity
  8
Calque_1
 62
5
100
AcDbPolyline
 90
4
 70
1
 10
167.766854
 20
57.292311
 30
0.0
 10
167.766854
 20
58.888704
 30
0.0
 10
170.477009
 20
58.888704
 30
0.0
 10
170.477009
 20
57.292311
 30
0.0
  0
LWPOLYLINE
  5
143
100
AcDbEntity
  8
Calque_1
 62
5
100
AcDbPolyline
 90
4
 70
1
 10
182.707722
 20
57.318360
 30
0.0
 10
182.707722
 20
58.875956
 30
0.0
 10
192.840849
 20
58.875956
 30
0.0
 10
192.840849
 20
57.318360
 30
0.0
  0
LWPOLYLINE
  5
144
100
AcDbEntity
  8
Calque_1
 62
5
100
AcDbPolyline
 90
4
 70
1
 10
205.476631
 20
57.300855
 30
0.0
 10
205.476631
 20
58.893454
 30
0.0
 10
208.206800
 20
58.893454
 30
0.0
 10
208.206800
 20
57.300855
 30
0.0
  0
SPLINE
  5
145
100
AcDbEntity
  8
Calque_1
 62
7
100
AcDbSpline
 70
8
 71
3
 72
8
 73
4
 74
0
 40
0
 40
0
 40
0
 40
0
 40
1
 40
1
 40
1
 40
1
 10
242.951945
 20
60.123776
 30
0.0
 10
242.951945
 20
55.223473
 30
0.0
 10
243.021951
 20
55.153467
 30
0.0
 10
243.021951
 20
55.153467
 30
0.0
  0
LWPOLYLINE
  5
146
100
AcDbEntity
  8
Calque_1
 62
5
100
AcDbPolyline
 90
4
 70
1
 10
220.282550
 20
57.300855
 30
0.0
 10
220.282550
 20
58.875952
 30
0.0
 10
229.593128
 20
58.875952
 30
0.0
 10
229.593128
 20
57.300855
 30
0.0
  0
LWPOLYLINE
  5
147
100
AcDbEntity
  8
Calque_1
 62
7
100
AcDbPolyline
 90
1
 70
1
 10
-107.119177
 20
31.680348
 30
0.0
  0
LWPOLYLINE
  5
148
100
AcDbEntity
  8
Calque_1
 62
7
100
AcDbPolyline
 90
1
 70
1
 10
268.917539
 20
106.964648
 30
0.0
  0
LWPOLYLINE
  5
149
100
AcDbEntity
  8
Calque_1
 62
7
100
AcDbPolyline
 90
3
 70
0
 10
282.109678
 20
3.996258
 30
0.0
 10
260.380691
 20
4.187148
 30
0.0
 10
260.380691
 20
4.187148
 30
0.0
  0
LWPOLYLINE
  5
14a
100
AcDbEntity
  8
Calque_1
 62
7
100
AcDbPolyline
 90
2
 70
0
 10
289.296502
 20
92.215671
 30
0.0
 10
280.637800
 20
89.357827
 30
0.0
  0
LWPOLYLINE
  5
14b
100
AcDbEntity
  8
Calque_1
 62
7
100
AcDbPolyline
 90
5
 70
0
 10
289.161845
 20
17.620609
 30
0.0
 10
289.161845
 20
17.620609
 30
0.0
 10
280.394492
 20
20.365829
 30
0.0
 10
280.606039
 20
89.294882
 30
0.0
 10
280.606039
 20
89.294882
 30
0.0
  0
LWPOLYLINE
  5
14c
100
AcDbEntity
  8
Calque_1
 62
7
100
AcDbPolyline
 90
2
 70
0
 10
292.215752
 20
70.159401
 30
0.0
 10
287.993823
 20
101.729802
 30
0.0
  0
SPLINE
  5
14d
100
AcDbEntity
  8
Calque_1
 62
7
100
AcDbSpline
 70
8
 71
3
 72
8
 73
4
 74
0
 40
0
 40
0
 40
0
 40
0
 40
1
 40
1
 40
1
 40
1
 10
288.002910
 20
101.665281
 30
0.0
 10
287.759522
 20
103.134813
 30
0.0
 10
287.185682
 20
104.251702
 30
0.0
 10
286.263633
 20
104.997005
 30
0.0
  0
SPLINE
  5
14e
100
AcDbEntity
  8
Calque_1
 62
7
100
AcDbSpline
 70
8
 71
3
 72
8
 73
4
 74
0
 40
0
 40
0
 40
0
 40
0
 40
1
 40
1
 40
1
 40
1
 10
286.263633
 20
104.997005
 30
0.0
 10
285.350537
 20
105.735075
 30
0.0
 10
284.086730
 20
106.099540
 30
0.0
 10
282.473439
 20
106.090400
 30
0.0
  0
LWPOLYLINE
  5
14f
100
AcDbEntity
  8
Calque_1
 62
7
100
AcDbPolyline
 90
3
 70
0
 10
287.741816
 20
7.956735
 30
0.0
 10
292.395094
 20
40.025438
 30
0.0
 10
292.395094
 20
40.025438
 30
0.0
  0
SPLINE
  5
150
100
AcDbEntity
  8
Calque_1
 62
7
100
AcDbSpline
 70
8
 71
3
 72
8
 73
4
 74
0
 40
0
 40
0
 40
0
 40
0
 40
1
 40
1
 40
1
 40
1
 10
282.094212
 20
3.996288
 30
0.0
 10
284.275208
 20
4.333409
 30
0.0
 10
285.580138
 20
4.898232
 30
0.0
 10
286.350700
 20
5.473326
 30
0.0
  0
SPLINE
  5
151
100
AcDbEntity
  8
Calque_1
 62
7
100
AcDbSpline
 70
8
 71
3
 72
8
 73
4
 74
0
 40
0
 40
0
 40
0
 40
0
 40
1
 40
1
 40
1
 40
1
 10
286.350700
 20
5.473326
 30
0.0
 10
287.344208
 20
6.214812
 30
0.0
 10
287.510411
 20
6.843931
 30
0.0
 10
287.741834
 20
7.965950
 30
0.0
  0
LWPOLYLINE
  5
152
100
AcDbEntity
  8
Calque_1
 62
7
100
AcDbPolyline
 90
2
 70
0
 10
282.473439
 20
106.090400
 30
0.0
 10
282.408954
 20
106.099742
 30
0.0
  0
LWPOLYLINE
  5
153
100
AcDbEntity
  8
Calque_1
 62
7
100
AcDbPolyline
 90
1
 70
1
 10
287.741834
 20
7.965950
 30
0.0
  0
LWPOLYLINE
  5
154
100
AcDbEntity
  8
Calque_1
 62
7
100
AcDbPolyline
 90
3
 70
0
 10
260.734517
 20
105.921922
 30
0.0
 10
282.556394
 20
106.099450
 30
0.0
 10
282.556394
 20
106.099450
 30
0.0
  0
LWPOLYLINE
  5
155
100
AcDbEntity
  8
Calque_1
 62
5
100
AcDbPolyline
 90
4
 70
1
 10
295.790726
 20
54.010705
 30
0.0
 10
295.794217
 20
55.756421
 30
0.0
 10
305.167084
 20
55.737679
 30
0.0
 10
305.163593
 20
53.991963
 30
0.0
  0
LWPOLYLINE
  5
156
100
AcDbEntity
  8
Calque_1
 62
5
100
AcDbPolyline
 90
4
 70
1
 10
287.902321
 20
54.079252
 30
0.0
 10
287.905709
 20
55.773434
 30
0.0
 10
290.590335
 20
55.768066
 30
0.0
 10
290.586947
 20
54.073885
 30
0.0
  0
LWPOLYLINE
  5
157
100
AcDbEntity
  8
Calque_1
 62
7
100
AcDbPolyline
 90
1
 70
1
 10
260.835825
 20
106.094616
 30
0.0
  0
LWPOLYLINE
  5
158
100
AcDbEntity
  8
Calque_1
 62
7
100
AcDbPolyline
 90
1
 70
1
 10
268.917539
 20
106.964648
 30
0.0
  0
LWPOLYLINE
  5
159
100
AcDbEntity
  8
Calque_1
 62
7
100
AcDbPolyline
 90
3
 70
0
 10
282.109678
 20
3.996258
 30
0.0
 10
260.380691
 20
4.187148
 30
0.0
 10
260.380691
 20
4.187148
 30
0.0
  0
SPLINE
  5
15a
100
AcDbEntity
  8
Calque_1
 62
7
100
AcDbSpline
 70
8
 71
3
 72
8
 73
4
 74
0
 40
0
 40
0
 40
0
 40
0
 40
1
 40
1
 40
1
 40
1
 10
292.376368
 20
39.878032
 30
0.0
 10
293.007806
 20
43.599687
 30
0.0
 10
293.815387
 20
46.240519
 30
0.0
 10
299.027149
 20
46.719147
 30
0.0
  0
SPLINE
  5
15b
100
AcDbEntity
  8
Calque_1
 62
7
100
AcDbSpline
 70
8
 71
3
 72
8
 73
4
 74
0
 40
0
 40
0
 40
0
 40
0
 40
1
 40
1
 40
1
 40
1
 10
292.215752
 20
70.159404
 30
0.0
 10
293.049090
 20
66.763950
 30
0.0
 10
293.349563
 20
66.145079
 30
0.0
 10
294.406260
 20
65.019802
 30
0.0
  0
SPLINE
  5
15c
100
AcDbEntity
  8
Calque_1
 62
7
100
AcDbSpline
 70
8
 71
3
 72
8
 73
4
 74
0
 40
0
 40
0
 40
0
 40
0
 40
1
 40
1
 40
1
 40
1
 10
294.406260
 20
65.019802
 30
0.0
 10
295.583936
 20
63.765699
 30
0.0
 10
297.224173
 20
63.544231
 30
0.0
 10
298.773043
 20
63.396339
 30
0.0
  0
LWPOLYLINE
  5
15d
100
AcDbEntity
  8
Calque_1
 62
7
100
AcDbPolyline
 90
2
 70
0
 10
312.661629
 20
64.433496
 30
0.0
 10
298.803631
 20
63.397952
 30
0.0
  0
LWPOLYLINE
  5
15e
100
AcDbEntity
  8
Calque_1
 62
7
100
AcDbPolyline
 90
2
 70
0
 10
298.878120
 20
46.718999
 30
0.0
 10
312.696237
 20
45.950896
 30
0.0
  0
LWPOLYLINE
  5
15f
100
AcDbEntity
  8
Calque_1
 62
7
100
AcDbPolyline
 90
2
 70
0
 10
292.215752
 20
70.159401
 30
0.0
 10
287.993823
 20
101.729802
 30
0.0
  0
SPLINE
  5
160
100
AcDbEntity
  8
Calque_1
 62
7
100
AcDbSpline
 70
8
 71
3
 72
8
 73
4
 74
0
 40
0
 40
0
 40
0
 40
0
 40
1
 40
1
 40
1
 40
1
 10
288.002910
 20
101.665281
 30
0.0
 10
287.759522
 20
103.134813
 30
0.0
 10
287.185682
 20
104.251702
 30
0.0
 10
286.263633
 20
104.997005
 30
0.0
  0
SPLINE
  5
161
100
AcDbEntity
  8
Calque_1
 62
7
100
AcDbSpline
 70
8
 71
3
 72
8
 73
4
 74
0
 40
0
 40
0
 40
0
 40
0
 40
1
 40
1
 40
1
 40
1
 10
286.263633
 20
104.997005
 30
0.0
 10
285.350537
 20
105.735075
 30
0.0
 10
284.086730
 20
106.099540
 30
0.0
 10
282.473439
 20
106.090400
 30
0.0
  0
LWPOLYLINE
  5
162
100
AcDbEntity
  8
Calque_1
 62
7
100
AcDbPolyline
 90
3
 70
0
 10
287.741816
 20
7.956735
 30
0.0
 10
292.395094
 20
40.025438
 30
0.0
 10
292.395094
 20
40.025438
 30
0.0
  0
SPLINE
  5
163
100
AcDbEntity
  8
Calque_1
 62
7
100
AcDbSpline
 70
8
 71
3
 72
8
 73
4
 74
0
 40
0
 40
0
 40
0
 40
0
 40
1
 40
1
 40
1
 40
1
 10
282.094212
 20
3.996288
 30
0.0
 10
284.275208
 20
4.333409
 30
0.0
 10
285.580138
 20
4.898232
 30
0.0
 10
286.350700
 20
5.473326
 30
0.0
  0
SPLINE
  5
164
100
AcDbEntity
  8
Calque_1
 62
7
100
AcDbSpline
 70
8
 71
3
 72
8
 73
4
 74
0
 40
0
 40
0
 40
0
 40
0
 40
1
 40
1
 40
1
 40
1
 10
286.350700
 20
5.473326
 30
0.0
 10
287.344208
 20
6.214812
 30
0.0
 10
287.510411
 20
6.843931
 30
0.0
 10
287.741834
 20
7.965950
 30
0.0
  0
LWPOLYLINE
  5
165
100
AcDbEntity
  8
Calque_1
 62
7
100
AcDbPolyline
 90
2
 70
0
 10
282.473439
 20
106.090400
 30
0.0
 10
282.408954
 20
106.099742
 30
0.0
  0
LWPOLYLINE
  5
166
100
AcDbEntity
  8
Calque_1
 62
7
100
AcDbPolyline
 90
1
 70
1
 10
287.741834
 20
7.965950
 30
0.0
  0
LWPOLYLINE
  5
167
100
AcDbEntity
  8
Calque_1
 62
7
100
AcDbPolyline
 90
3
 70
0
 10
260.734517
 20
105.921922
 30
0.0
 10
282.556394
 20
106.099450
 30
0.0
 10
282.556394
 20
106.099450
 30
0.0
  0
LWPOLYLINE
  5
168
100
AcDbEntity
  8
Calque_1
 62
5
100
AcDbPolyline
 90
4
 70
1
 10
287.902321
 20
54.079252
 30
0.0
 10
287.905709
 20
55.773434
 30
0.0
 10
290.590335
 20
55.768066
 30
0.0
 10
290.586947
 20
54.073885
 30
0.0
  0
LWPOLYLINE
  5
169
100
AcDbEntity
  8
Calque_1
 62
7
100
AcDbPolyline
 90
6
 70
0
 10
288.981070
 20
16.817329
 30
0.0
 10
280.484175
 20
19.445835
 30
0.0
 10
280.484175
 20
19.445835
 30
0.0
 10
280.471207
 20
20.477853
 30
0.0
 10
280.471207
 20
20.477853
 30
0.0
 10
280.471207
 20
20.477853
 30
0.0
  0
SPLINE
  5
16a
100
AcDbEntity
  8
Calque_1
 62
7
100
AcDbSpline
 70
8
 71
3
 72
8
 73
4
 74
0
 40
0
 40
0
 40
0
 40
0
 40
1
 40
1
 40
1
 40
1
 10
280.609087
 20
90.196977
 30
0.0
 10
280.606513
 20
89.859591
 30
0.0
 10
280.620794
 20
89.631897
 30
0.0
 10
280.618220
 20
89.294510
 30
0.0
  0
LWPOLYLINE
  5
16b
100
AcDbEntity
  8
Calque_1
 62
7
100
AcDbPolyline
 90
2
 70
0
 10
289.159914
 20
92.942744
 30
0.0
 10
280.609087
 20
90.196977
 30
0.0
  0
LWPOLYLINE
  5
16c
100
AcDbEntity
  8
Calque_1
 62
7
100
AcDbPolyline
 90
7
 70
0
 10
312.646965
 20
64.491422
 30
0.0
 10
312.156935
 20
59.101089
 30
0.0
 10
313.977049
 20
59.066088
 30
0.0
 10
313.977046
 20
51.225600
 30
0.0
 10
313.977046
 20
51.225600
 30
0.0
 10
312.191934
 20
51.243115
 30
0.0
 10
312.716968
 20
45.957775
 30
0.0
  0
LWPOLYLINE
  5
16d
100
AcDbEntity
  8
Calque_1
 62
7
100
AcDbPolyline
 90
5
 70
0
 10
271.601983
 20
55.783243
 30
0.0
 10
268.928951
 20
55.783243
 30
0.0
 10
247.722213
 20
71.614923
 30
0.0
 10
260.651961
 20
105.849977
 30
0.0
 10
260.651961
 20
105.849977
 30
0.0
  0
LWPOLYLINE
  5
16e
100
AcDbEntity
  8
Calque_1
 62
7
100
AcDbPolyline
 90
5
 70
0
 10
271.651484
 20
54.149727
 30
0.0
 10
268.953697
 20
54.124962
 30
0.0
 10
247.905312
 20
37.992533
 30
0.0
 10
260.414855
 20
4.203675
 30
0.0
 10
260.414855
 20
4.203675
 30
0.0
  0
LWPOLYLINE
  5
16f
100
AcDbEntity
  8
Calque_1
 62
7
100
AcDbPolyline
 90
2
 70
0
 10
271.642642
 20
55.796875
 30
0.0
 10
271.572635
 20
54.116771
 30
0.0
  0
LWPOLYLINE
  5
170
100
AcDbEntity
  8
Calque_1
 62
7
100
AcDbPolyline
 90
6
 70
0
 10
233.212016
 20
96.981615
 30
0.0
 10
206.452857
 20
86.924447
 30
0.0
 10
206.452995
 20
85.269410
 30
0.0
 10
201.975567
 20
85.236377
 30
0.0
 10
188.936541
 20
80.391840
 30
0.0
 10
136.909964
 20
60.897769
 30
0.0
  0
LWPOLYLINE
  5
171
100
AcDbEntity
  8
Calque_1
 62
7
100
AcDbPolyline
 90
2
 70
0
 10
138.530270
 20
89.850102
 30
0.0
 10
136.894081
 20
60.872750
 30
0.0
  0
LWPOLYLINE
  5
172
100
AcDbEntity
  8
Calque_1
 62
7
100
AcDbPolyline
 90
2
 70
0
 10
233.279374
 20
117.485604
 30
0.0
 10
233.241049
 20
96.947571
 30
0.0
  0
LWPOLYLINE
  5
173
100
AcDbEntity
  8
Calque_1
 62
7
100
AcDbPolyline
 90
1
 70
1
 10
152.708669
 20
123.234046
 30
0.0
  0
SPLINE
  5
174
100
AcDbEntity
  8
Calque_1
 62
7
100
AcDbSpline
 70
8
 71
3
 72
8
 73
4
 74
0
 40
0
 40
0
 40
0
 40
0
 40
1
 40
1
 40
1
 40
1
 10
232.216553
 20
122.058503
 30
0.0
 10
195.712450
 20
124.057458
 30
0.0
 10
140.518740
 20
127.177212
 30
0.0
 10
122.580494
 20
128.080121
 30
0.0
  0
LWPOLYLINE
  5
175
100
AcDbEntity
  8
Calque_1
 62
7
100
AcDbPolyline
 90
1
 70
1
 10
141.642118
 20
119.303990
 30
0.0
  0
SPLINE
  5
176
100
AcDbEntity
  8
Calque_1
 62
7
100
AcDbSpline
 70
8
 71
3
 72
8
 73
4
 74
0
 40
0
 40
0
 40
0
 40
0
 40
1
 40
1
 40
1
 40
1
 10
134.448572
 20
88.965222
 30
0.0
 10
135.117955
 20
89.170883
 30
0.0
 10
220.334219
 20
105.907507
 30
0.0
 10
220.334219
 20
105.907507
 30
0.0
  0
LWPOLYLINE
  5
177
100
AcDbEntity
  8
Calque_1
 62
7
100
AcDbPolyline
 90
9
 70
0
 10
233.546833
 20
118.125837
 30
0.0
 10
227.028621
 20
118.168299
 30
0.0
 10
220.270777
 20
105.870433
 30
0.0
 10
220.921376
 20
105.498422
 30
0.0
 10
220.921376
 20
105.498422
 30
0.0
 10
227.357133
 20
117.443061
 30
0.0
 10
227.357133
 20
117.443061
 30
0.0
 10
233.478432
 20
117.451915
 30
0.0
 10
233.558871
 20
117.451920
 30
0.0
  0
LWPOLYLINE
  5
178
100
AcDbEntity
  8
Calque_1
 62
7
100
AcDbPolyline
 90
2
 70
0
 10
220.334219
 20
105.907507
 30
0.0
 10
220.401017
 20
105.907072
 30
0.0
  0
LWPOLYLINE
  5
179
100
AcDbEntity
  8
Calque_1
 62
7
100
AcDbPolyline
 90
2
 70
0
 10
134.798305
 20
89.065500
 30
0.0
 10
130.249722
 20
88.150034
 30
0.0
  0
SPLINE
  5
17a
100
AcDbEntity
  8
Calque_1
 62
7
100
AcDbSpline
 70
8
 71
3
 72
8
 73
4
 74
0
 40
0
 40
0
 40
0
 40
0
 40
1
 40
1
 40
1
 40
1
 10
130.256034
 20
89.162091
 30
0.0
 10
130.280245
 20
88.848339
 30
0.0
 10
130.256381
 20
87.761773
 30
0.0
 10
130.257546
 20
88.182139
 30
0.0
  0
SPLINE
  5
17b
100
AcDbEntity
  8
Calque_1
 62
7
100
AcDbSpline
 70
8
 71
3
 72
8
 73
4
 74
0
 40
0
 40
0
 40
0
 40
0
 40
1
 40
1
 40
1
 40
1
 10
233.548568
 20
118.141445
 30
0.0
 10
233.563606
 20
117.807255
 30
0.0
 10
233.566279
 20
119.909432
 30
0.0
 10
233.581344
 20
120.811988
 30
0.0
  0
SPLINE
  5
17c
100
AcDbEntity
  8
Calque_1
 62
7
100
AcDbSpline
 70
8
 71
3
 72
8
 73
4
 74
0
 40
0
 40
0
 40
0
 40
0
 40
1
 40
1
 40
1
 40
1
 10
233.579509
 20
120.825772
 30
0.0
 10
233.543763
 20
121.190657
 30
0.0
 10
233.538489
 20
121.528657
 30
0.0
 10
233.309111
 20
121.736294
 30
0.0
  0
SPLINE
  5
17d
100
AcDbEntity
  8
Calque_1
 62
7
100
AcDbSpline
 70
8
 71
3
 72
8
 73
4
 74
0
 40
0
 40
0
 40
0
 40
0
 40
1
 40
1
 40
1
 40
1
 10
233.309111
 20
121.736294
 30
0.0
 10
233.082941
 20
121.941028
 30
0.0
 10
232.635462
 20
122.017667
 30
0.0
 10
232.206793
 20
122.057950
 30
0.0
  0
LWPOLYLINE
  5
17e
100
AcDbEntity
  8
Calque_1
 62
7
100
AcDbPolyline
 90
7
 70
0
 10
122.429794
 20
87.535909
 30
0.0
 10
122.429794
 20
87.535909
 30
0.0
 10
122.429794
 20
87.535909
 30
0.0
 10
122.429794
 20
87.535909
 30
0.0
 10
127.706851
 20
87.501532
 30
0.0
 10
127.734405
 20
89.129020
 30
0.0
 10
130.256034
 20
89.162091
 30
0.0
  0
LWPOLYLINE
  5
17f
100
AcDbEntity
  8
Calque_1
 62
7
100
AcDbPolyline
 90
2
 70
0
 10
232.206793
 20
122.057950
 30
0.0
 10
232.219743
 20
122.068978
 30
0.0
  0
SPLINE
  5
180
100
AcDbEntity
  8
Calque_1
 62
5
100
AcDbSpline
 70
8
 71
3
 72
8
 73
4
 74
0
 40
0
 40
0
 40
0
 40
0
 40
1
 40
1
 40
1
 40
1
 10
249.312752
 20
83.074286
 30
0.0
 10
249.312752
 20
79.727310
 30
0.0
 10
246.045906
 20
76.634577
 30
0.0
 10
240.742803
 20
74.961089
 30
0.0
  0
SPLINE
  5
181
100
AcDbEntity
  8
Calque_1
 62
5
100
AcDbSpline
 70
8
 71
3
 72
8
 73
4
 74
0
 40
0
 40
0
 40
0
 40
0
 40
1
 40
1
 40
1
 40
1
 10
240.742803
 20
74.961089
 30
0.0
 10
235.439700
 20
73.287601
 30
0.0
 10
228.906008
 20
73.287601
 30
0.0
 10
223.602905
 20
74.961089
 30
0.0
  0
SPLINE
  5
182
100
AcDbEntity
  8
Calque_1
 62
5
100
AcDbSpline
 70
8
 71
3
 72
8
 73
4
 74
0
 40
0
 40
0
 40
0
 40
0
 40
1
 40
1
 40
1
 40
1
 10
223.602905
 20
74.961089
 30
0.0
 10
218.299802
 20
76.634577
 30
0.0
 10
215.032956
 20
79.727310
 30
0.0
 10
215.032956
 20
83.074286
 30
0.0
  0
SPLINE
  5
183
100
AcDbEntity
  8
Calque_1
 62
5
100
AcDbSpline
 70
8
 71
3
 72
8
 73
4
 74
0
 40
0
 40
0
 40
0
 40
0
 40
1
 40
1
 40
1
 40
1
 10
215.032956
 20
83.074286
 30
0.0
 10
215.032956
 20
86.421262
 30
0.0
 10
218.299802
 20
89.513996
 30
0.0
 10
223.602905
 20
91.187484
 30
0.0
  0
SPLINE
  5
184
100
AcDbEntity
  8
Calque_1
 62
5
100
AcDbSpline
 70
8
 71
3
 72
8
 73
4
 74
0
 40
0
 40
0
 40
0
 40
0
 40
1
 40
1
 40
1
 40
1
 10
223.602905
 20
91.187484
 30
0.0
 10
228.906008
 20
92.860972
 30
0.0
 10
235.439700
 20
92.860972
 30
0.0
 10
240.742803
 20
91.187484
 30
0.0
  0
SPLINE
  5
185
100
AcDbEntity
  8
Calque_1
 62
5
100
AcDbSpline
 70
8
 71
3
 72
8
 73
4
 74
0
 40
0
 40
0
 40
0
 40
0
 40
1
 40
1
 40
1
 40
1
 10
240.742803
 20
91.187484
 30
0.0
 10
246.045906
 20
89.513996
 30
0.0
 10
249.312752
 20
86.421262
 30
0.0
 10
249.312752
 20
83.074286
 30
0.0
  0
LWPOLYLINE
  5
186
100
AcDbEntity
  8
Calque_1
 62
7
100
AcDbPolyline
 90
2
 70
0
 10
122.465550
 20
87.580534
 30
0.0
 10
122.507593
 20
128.063770
 30
0.0
  0
LWPOLYLINE
  5
187
100
AcDbEntity
  8
Calque_1
 62
5
100
AcDbPolyline
 90
1
 70
1
 10
249.312752
 20
83.074286
 30
0.0
  0
LWPOLYLINE
  5
188
100
AcDbEntity
  8
Calque_1
 62
5
100
AcDbPolyline
 90
4
 70
1
 10
220.335044
 20
83.625947
 30
0.0
 10
237.649791
 20
83.625947
 30
0.0
 10
237.649791
 20
82.002873
 30
0.0
 10
220.335044
 20
82.002873
 30
0.0
  0
LWPOLYLINE
  5
189
100
AcDbEntity
  8
Calque_1
 62
5
100
AcDbPolyline
 90
4
 70
1
 10
215.132277
 20
83.581669
 30
0.0
 10
217.731056
 20
83.581669
 30
0.0
 10
217.731056
 20
82.047152
 30
0.0
 10
215.132277
 20
82.047152
 30
0.0
  0
LWPOLYLINE
  5
18a
100
AcDbEntity
  8
Calque_1
 62
7
100
AcDbPolyline
 90
3
 70
0
 10
217.780552
 20
82.863911
 30
0.0
 10
220.305082
 20
82.863911
 30
0.0
 10
220.305082
 20
82.863911
 30
0.0
  0
LWPOLYLINE
  5
18b
100
AcDbEntity
  8
Calque_1
 62
5
100
AcDbPolyline
 90
4
 70
1
 10
186.468898
 20
86.873099
 30
0.0
 10
189.215467
 20
86.873099
 30
0.0
 10
189.215467
 20
85.289793
 30
0.0
 10
186.468898
 20
85.289793
 30
0.0
  0
LWPOLYLINE
  5
18c
100
AcDbEntity
  8
Calque_1
 62
5
100
AcDbPolyline
 90
4
 70
1
 10
188.460459
 20
124.580978
 30
0.0
 10
190.020701
 20
124.580978
 30
0.0
 10
190.020701
 20
116.452942
 30
0.0
 10
188.460459
 20
116.452942
 30
0.0
  0
SPLINE
  5
18d
100
AcDbEntity
  8
Calque_1
 62
7
100
AcDbSpline
 70
8
 71
3
 72
8
 73
4
 74
0
 40
0
 40
0
 40
0
 40
0
 40
1
 40
1
 40
1
 40
1
 10
81.564234
 20
90.537435
 30
0.0
 10
81.598447
 20
142.226355
 30
0.0
 10
121.247665
 20
138.315096
 30
0.0
 10
121.251895
 20
90.537435
 30
0.0
  0
LWPOLYLINE
  5
18e
100
AcDbEntity
  8
Calque_1
 62
5
100
AcDbPolyline
 90
4
 70
1
 10
188.484118
 20
107.838036
 30
0.0
 10
190.120784
 20
107.838036
 30
0.0
 10
190.120784
 20
105.335111
 30
0.0
 10
188.484118
 20
105.335111
 30
0.0
  0
SPLINE
  5
18f
100
AcDbEntity
  8
Calque_1
 62
7
100
AcDbSpline
 70
8
 71
3
 72
8
 73
4
 74
0
 40
0
 40
0
 40
0
 40
0
 40
1
 40
1
 40
1
 40
1
 10
81.608578
 20
90.685619
 30
0.0
 10
87.969871
 20
92.887897
 30
0.0
 10
94.444661
 20
94.790188
 30
0.0
 10
101.593629
 20
94.910581
 30
0.0
  0
SPLINE
  5
190
100
AcDbEntity
  8
Calque_1
 62
7
100
AcDbSpline
 70
8
 71
3
 72
8
 73
4
 74
0
 40
0
 40
0
 40
0
 40
0
 40
1
 40
1
 40
1
 40
1
 10
101.593629
 20
94.910581
 30
0.0
 10
107.554490
 20
95.010967
 30
0.0
 10
113.984058
 20
93.872516
 30
0.0
 10
121.207358
 20
90.636178
 30
0.0
  0
LWPOLYLINE
  5
191
100
AcDbEntity
  8
Calque_1
 62
7
100
AcDbPolyline
 90
1
 70
1
 10
121.251895
 20
90.537435
 30
0.0
  0
LWPOLYLINE
  5
192
100
AcDbEntity
  8
Calque_1
 62
7
100
AcDbPolyline
 90
1
 70
1
 10
121.207358
 20
90.636178
 30
0.0
  0
LWPOLYLINE
  5
193
100
AcDbEntity
  8
Calque_1
 62
5
100
AcDbPolyline
 90
4
 70
1
 10
100.591586
 20
111.465566
 30
0.0
 10
102.150853
 20
111.465566
 30
0.0
 10
102.150853
 20
102.951472
 30
0.0
 10
100.591586
 20
102.951472
 30
0.0
  0
LWPOLYLINE
  5
194
100
AcDbEntity
  8
Calque_1
 62
5
100
AcDbPolyline
 90
4
 70
1
 10
100.566829
 20
100.327941
 30
0.0
 10
102.200346
 20
100.327941
 30
0.0
 10
102.200346
 20
94.907632
 30
0.0
 10
100.566829
 20
94.907632
 30
0.0
  0
LWPOLYLINE
  5
195
100
AcDbEntity
  8
Calque_1
 62
7
100
AcDbPolyline
 90
2
 70
0
 10
101.356356
 20
100.359937
 30
0.0
 10
101.381094
 20
102.958717
 30
0.0
  0
LWPOLYLINE
  5
196
100
AcDbEntity
  8
Calque_1
 62
7
100
AcDbPolyline
 90
3
 70
0
 10
49.376793
 20
29.106320
 30
0.0
 10
46.629510
 20
29.106320
 30
0.0
 10
46.629510
 20
29.106320
 30
0.0
  0
LWPOLYLINE
  5
197
100
AcDbEntity
  8
Calque_1
 62
7
100
AcDbPolyline
 90
3
 70
0
 10
46.332508
 20
53.163585
 30
0.0
 10
46.431510
 20
15.444168
 30
0.0
 10
46.431510
 20
15.444168
 30
0.0
  0
ENDSEC
  0
SECTION
  2
OBJECTS
  0
DICTIONARY
  5
C
330
0
100
AcDbDictionary
  3
ACAD_GROUP
350
D
  3
ACAD_MLINESTYLE
350
17
  0
DICTIONARY
  5
D
330
C
100
AcDbDictionary
  0
DICTIONARY
  5
1A
330
C
100
AcDbDictionary
  0
DICTIONARY
  5
17
330
C
100
AcDbDictionary
  3
STANDARD
350
18
  0
DICTIONARY
  5
19
330
C
100
AcDbDictionary
  0
ENDSEC
  0
EOF
